Chord Creed One Last Breath [Tab]

121 views

Intro – (fingerpicked)
-2-----5-----0h2--------|---------------------------|
------------------3-----|-----2h3h5-----3h5p3p2-----|
---------------------2--|------------------------2--|
-0--0-----0-------------|---------------------------|
------------------------|--0---------0--------------|
------------------------|---------------------------|                           

------------------------|--------------------3--2--|
-------3-----2h3--0-----|--------------2-----------|
---------------------0--|--------0-----------------|
------------------------|-----0-----0-----0--------|
-2--2-----2-------------|--------------------------|
------------------------|--3-----------------------|
                                                                             
-2-----3-----2--2h3p2--------|---------------------------|
-----------------------3-----|-----------2--2h3p2-----0--|
--------------------------0--|--------2------------2-----|
-0--0-----0------------------|-----2--------2------------|
-----------------------------|--0------------------------|
-----------------------------|---------------------------|
                                                                            
--------------2-----------|--------------3--------|
-----------2-----2--------|-----------------3-----|
-------4------------4-----|--------------------0--|
----4------------------4--|--------0--------------|
-2------------------------|-----2-----2-----------|
--------------------------|--3--------------------|

                                                                              
Chorus – (clean)
-2------------------0------------|
-3--------0---------3---------0--|
-2--------3---------4---------4--| Strum
-0--------4---------4---------5--| Chords
----------4---------2---------5--|
----------2-------------------3--|

The go into the verse

Dirty Chorus -                                                                             
---------------------------------|
---------------------------------|
--------------------4------------| Strum 
-7--------4---------4---------5--| Chords
-5--------4---------2---------5--|
----------2-------------------3--|

Bridge – (listen to song for strumming) “Sad eyes follow me”
------------------|--------------------|
------------------|--------------------|
---------------7--|---------7----------|
-2------7------7--|--2------7-------5--|
-2------7------5--|--2------5-------3--|
-0------5---------|--0--------------3--|

Interlude - (Violins)
------------------------------------------|
------------------------------------------|
------4~~------2~~------------------------|
-4~~----------------5~---4~~--------------|
-------------------------------4~~---5~~--|
------------------------------------------|

(Guitar)                                              
-2-----------------0-------------------3--|
-3-----------------3-------------------3--|
-2-----------------4-------------------0--|
-0-----------------4-------------------0--|
-------------------2-------------------2--|
---------------------------------------3--|

Play clean chorus chords

Then dirty chorus

Then end on the verse riffs

Leave a reply "Chord Creed One Last Breath [Tab]"