Chord Andra and the backbone Main Hati [Interlude Tab]

52 views

E-|-------------------------------------------------------------| 
B-|--4-5-4-----4-5-4-------4-5-4------------2b------------------| 
G-|--------4b---------4b----------4b-----4b--------------------| 
D-|---------------------4-6---------4-6-------------------------| 
A-|-------------------------------------------------------------| 
D-|-------------------------------------------------------------| 

      
E-|-------------------------------------------------------------| 
B-|--4-5-4----4-5-4-7---------------------------777--555--33333-| 
G-|--------4----------8-------4---6-4-6--8b-8b-4----------------| 
D-|-----------------------4-6-----------------------------------| 
A-|-------------------------------------------------------------| 
D-|-------------------------------------------------------------|

tab by Alexyango

Leave a reply "Chord Andra and the backbone Main Hati [Interlude Tab]"